segunda-feira, 30 de abril de 2012

Tablatura (guitarra) - Deus da minha vida


Cantor/Banda: Thalles roberto
Álbum: Na sala do pai (versão CD)
Título: Deus da minha vida

Guitarra 1 (solo) introdução
E-----------------------
B-----------------------
G------5------5-------
D----7--7-------8-7--
A-/5-------------------
E-----------------------

Guitarra 2 base introdução
E------------
B-5-6-6---
G-5-5-5---
D------------
A------------
E------------

Guitarra base até 0:58 (tempo na música)
E------------------
B--5h6---5--6----
G--5------5--5----
D--------------------
A--------------------
E---------------------

Guitarra solo até 0:58(tempo na música)
E-------------------
B-------------------
G------5---------
D----7--7--------
A-/5---------------
E------------------


Guitarra solo 3:42 (tempo na música)
E----10---10-----------------------------------------------------
B-13---13-------------------------------------------------------
G---------------12---10--------------10----10----------------
D-------------------------12-10--12----12-----12-10-12----
A--------------------------------------------------------------------
E--------------------------------------------------------------------

E-------------------------------------------------------------------------------------------------
B-------------------------------------------------------------------------------------------------
G---------10-9--------------------------10-10-10-10-10-12-12b14----10----10------
D-10-12--------10-10/12----10-12-------------------------------------------12----12-
A------------------------------------------------------------------------------------------------
E-------------------------------------------------------------------------------------------------

E-----------------------------------------------------------------------------------------
B----------------------------------------------------------------------------13-15-13-
G-----12h13p12-10----------------------------------------10-12/14--------------
D-12---------------------12-11-10-----------------10h12--------------------------
A--------------------------------------12-10-10-12-----------------------------------
E------------------------------------------------------------------------------------------

E------------------10--------10-------10------------------------------
B----------------------------------------------------------10-----10-----
G-----10----12b14---12b14---12b14---12b14-------12----12-
D-12----12---------------------------------------------------------------
A----------------------------------------------------------------------------
E----------------------------------------------------------------------------

E------------------------------------------------------------
B-----------------------------------------------------------
G-----------------10-10-12-10-12b13r12---10------
D-12h15----12--------------------------------------12--
A-------------------------------------------------------------
E--------------------------------------------------------------

E--------------------------------------------------------------------------------------------------------
B--------------------------------------------------------------------------------------------------------
G---------10--------------------------10------------------------10----10--12--10--12--12b13--
D-10-12-----12-10-12---10-12-----12-10-12---10-12----12--------------------------------
A---------------------------------------------------------------------------------------------------------
E--------------------------------------------------------------------------------------

Final 4:21(tempo na música)
Base oitavada
E-------------------------------------------------------------------------------------------
B-------------------------------------------------------------------------------------------
G-7--9--10--9--5--7---7--9--10--9--5--7----7---9---10----12--10---9---7---
D-------------------------------------------------------------------------------------------
A-5--7---8---7--3--5---5--7---8---7--3--5----5---7----8-----10---8---7---5---
E-------------------------------------------------------------------------------------------

/ : Slide
h : hammer on
p : pull off
b : bend
r : reverse bend

PS: pode seguir a tablatura que dá tudo certo. 

9 comentários:

  1. valeu cara muito boa essa musica.. estava a tempos procurando uma tab... vlww

    ResponderExcluir
  2. parabéns muito bom ficou, continuem com esse trabalho....

    ResponderExcluir
  3. ficou perfeito, eu soh tenho o problema q perco o ritmo toda hora -_-

    ResponderExcluir
  4. será q dar pra fazer no violão pq ainda ñ comprei uma guitar fender??????????

    ResponderExcluir
    Respostas
    1. e quem disse que precisa ser fender ferá ?? Guitarra não faz de um guitarrista melhor !! Isso é com muito trabalho e dedicação

      Excluir
    2. exatamente o que o Vinicius falou, se vc não souber tocar, pode ser de gibson ou fender q nao vai sair som =D

      Excluir
  5. cara vcs salvaram a minha estada na banda kkkk se eu nao achasse essa tablatura eu tava praticamente fora da banda continuen assim muito grato a vcs

    ResponderExcluir
  6. esse é o solo do show de belo horizonte ou o solo do CD gravado no studio?

    ResponderExcluir